56吉他谱-期望您在此找到满意的吉他曲谱!
56吉他谱
当前位置: 首页 > 欧美歌手 >

Ultraviolet

时间:2014-01-18 10:55来源:56jita.com 歌手:mcfly 点击:
分享给好友:

Ultraviolet吉他谱欣赏!若图片未加载成功,请尝试刷新!!!


Ultraviolet吉他谱简谱 Ultraviolet吉他六线谱()
上一张 原始吉他图谱 下一张
歌曲名:Ultraviolet
歌手/乐队:Mcfly 
编配者(转载来源):寥雨 (提供)
-------------------------------------------------------------------------------

歌曲名:Ultraviolet
歌手:Mcfly


D  D  D  D
e|----------2---------------|---------3-----------------|
B|-------3-----3-----3------|------3-----3-----3--------|
G|----2-----------2---------|----2----------2-----------|
D|-0------------------------|-0-------------------------|
A|--------------------------|---------------------------|
E|--------------------------|---------------------------|

e|----------2---------------|---------3-----------------|
B|-------3----3-----3-------|------3-----3-----3--------|
G|----2----------2----------|----2----------2-----------|
D|-0------------------------|-0-------------------------|
A|--------------------------|---------------------------|
E|--------------------------|---------------------------|
D                 D
Nothing goes to plan
D                       
It’s all a game of chance they say in wonderland
D
There’s magic in the air
D
A tragic love affair that I don’t understand
G            A                D    A     Bm
These summer girls are really something else
G                A
Our lives are short
A                  D
And The nights are long
D
Mrs halloween
D
Is drinking at the bar again in New Orleans
G
She throws another dart
G                             D
And narrowly avoids my lonely broken heart
D
Torn apart


G            A                D    A     Bm
These summer girls are really something else
G                A
Our lives are short
A                  D
And The nights are long
Cmaj7         G      D
The nights go on and on
Cmaj7         G      D
The nights go on and on
Cmaj7         G      D
The nights go on and on

Bm
So pinch me I must be dreaming
A
My life has lost all its meaning
Em                 A           Bm
But i like the way I’m feeling now

Bm
Kissing your lips at midnight
A
Under the stars and moonlight
Em                  A                D
But i never thought we’d be this wrong


Cmaj7         G      D
The nights go on and on
Cmaj7         G      D
The nights go on and on
Cmaj7         G      D
The nights go on and on

D
She’s looking good tonight
D
I love the way she glows in ultraviolet light
G
Intoxicate my mind
G
I know that love is blind
D
and i’m not seeing right
D
not alright


G            A                D    A     Bm
These summer girls are really something else
G                A
Our lives are short
A                  D
And The nights are long

G            A                D    A     Bm
These summer girls are really something else
G                A
Our lives are short
A                  D
And The nights are long
Cmaj7         G      D
The nights go on and on
Cmaj7         G      D
The nights go on and on
Cmaj7         G      D
The nights go on and on

D D D D D D 

Ultraviolet吉他谱一共有1页,当前为第1页。原始吉他图谱可以查看Ultraviolet吉他曲谱大图,右键点击曲谱可将Ultraviolet吉他谱下载到电脑本地。
------分隔线----------------------------
评论列表(网友评论仅供网友表达个人看法,并不表明本站同意其观点或证实其描述)